  0
SECTION
  2
HEADER
  9
$ACADVER
  1
AC1015
  9
$ACADMAINTVER
 70
     6
  9
$DWGCODEPAGE
  3
ANSI_1252
  9
$INSBASE
 10
116.6606187067325
 20
16.9643844793483
 30
-0.0000000000000023
  9
$EXTMIN
 10
-233.2200411489478
 20
-76.32623099399552
 30
-0.0000000000001011
  9
$EXTMAX
 10
293.6832630594809
 20
123.2655746815548
 30
0.0000000000000058
  9
$LIMMIN
 10
0.0
 20
0.0
  9
$LIMMAX
 10
12.0
 20
9.0
  9
$ORTHOMODE
 70
     1
  9
$REGENMODE
 70
     1
  9
$FILLMODE
 70
     1
  9
$QTEXTMODE
 70
     0
  9
$MIRRTEXT
 70
     0
  9
$LTSCALE
 40
1.0
  9
$ATTMODE
 70
     1
  9
$TEXTSIZE
 40
0.2
  9
$TRACEWID
 40
0.05
  9
$TEXTSTYLE
  7
Standard
  9
$CLAYER
  8
0
  9
$CELTYPE
  6
ByLayer
  9
$CECOLOR
 62
   256
  9
$CELTSCALE
 40
1.0
  9
$DISPSILH
 70
     0
  9
$DIMSCALE
 40
1.0
  9
$DIMASZ
 40
0.18
  9
$DIMEXO
 40
0.0625
  9
$DIMDLI
 40
0.38
  9
$DIMRND
 40
0.0
  9
$DIMDLE
 40
0.0
  9
$DIMEXE
 40
0.18
  9
$DIMTP
 40
0.0
  9
$DIMTM
 40
0.0
  9
$DIMTXT
 40
0.18
  9
$DIMCEN
 40
0.09
  9
$DIMTSZ
 40
0.0
  9
$DIMTOL
 70
     0
  9
$DIMLIM
 70
     0
  9
$DIMTIH
 70
     1
  9
$DIMTOH
 70
     1
  9
$DIMSE1
 70
     0
  9
$DIMSE2
 70
     0
  9
$DIMTAD
 70
     0
  9
$DIMZIN
 70
     0
  9
$DIMBLK
  1

  9
$DIMASO
 70
     1
  9
$DIMSHO
 70
     1
  9
$DIMPOST
  1

  9
$DIMAPOST
  1

  9
$DIMALT
 70
     0
  9
$DIMALTD
 70
     2
  9
$DIMALTF
 40
25.4
  9
$DIMLFAC
 40
1.0
  9
$DIMTOFL
 70
     0
  9
$DIMTVP
 40
0.0
  9
$DIMTIX
 70
     0
  9
$DIMSOXD
 70
     0
  9
$DIMSAH
 70
     0
  9
$DIMBLK1
  1

  9
$DIMBLK2
  1

  9
$DIMSTYLE
  2
Standard
  9
$DIMCLRD
 70
     0
  9
$DIMCLRE
 70
     0
  9
$DIMCLRT
 70
     0
  9
$DIMTFAC
 40
1.0
  9
$DIMGAP
 40
0.09
  9
$DIMJUST
 70
     0
  9
$DIMSD1
 70
     0
  9
$DIMSD2
 70
     0
  9
$DIMTOLJ
 70
     1
  9
$DIMTZIN
 70
     0
  9
$DIMALTZ
 70
     0
  9
$DIMALTTZ
 70
     0
  9
$DIMUPT
 70
     0
  9
$DIMDEC
 70
     4
  9
$DIMTDEC
 70
     4
  9
$DIMALTU
 70
     2
  9
$DIMALTTD
 70
     2
  9
$DIMTXSTY
  7
Standard
  9
$DIMAUNIT
 70
     0
  9
$DIMADEC
 70
     0
  9
$DIMALTRND
 40
0.0
  9
$DIMAZIN
 70
     0
  9
$DIMDSEP
 70
    46
  9
$DIMATFIT
 70
     3
  9
$DIMFRAC
 70
     0
  9
$DIMLDRBLK
  1

  9
$DIMLUNIT
 70
     2
  9
$DIMLWD
 70
    -2
  9
$DIMLWE
 70
    -2
  9
$DIMTMOVE
 70
     0
  9
$LUNITS
 70
     2
  9
$LUPREC
 70
     4
  9
$SKETCHINC
 40
0.1
  9
$FILLETRAD
 40
0.125
  9
$AUNITS
 70
     0
  9
$AUPREC
 70
     0
  9
$MENU
  1
.
  9
$ELEVATION
 40
0.0
  9
$PELEVATION
 40
0.0
  9
$THICKNESS
 40
0.0
  9
$LIMCHECK
 70
     0
  9
$CHAMFERA
 40
0.0
  9
$CHAMFERB
 40
0.0
  9
$CHAMFERC
 40
0.0
  9
$CHAMFERD
 40
0.0
  9
$SKPOLY
 70
     0
  9
$TDCREATE
 40
2454608.616975995
  9
$TDUCREATE
 40
2454608.825309329
  9
$TDUPDATE
 40
2454701.451497153
  9
$TDUUPDATE
 40
2454701.659830486
  9
$TDINDWG
 40
1.2461918171
  9
$TDUSRTIMER
 40
1.2461918171
  9
$USRTIMER
 70
     1
  9
$ANGBASE
 50
0.0
  9
$ANGDIR
 70
     0
  9
$PDMODE
 70
     0
  9
$PDSIZE
 40
0.0
  9
$PLINEWID
 40
0.0
  9
$SPLFRAME
 70
     0
  9
$SPLINETYPE
 70
     6
  9
$SPLINESEGS
 70
     8
  9
$HANDSEED
  5
C8
  9
$SURFTAB1
 70
     6
  9
$SURFTAB2
 70
     6
  9
$SURFTYPE
 70
     6
  9
$SURFU
 70
     6
  9
$SURFV
 70
     6
  9
$UCSBASE
  2

  9
$UCSNAME
  2

  9
$UCSORG
 10
0.0
 20
0.0
 30
0.0
  9
$UCSXDIR
 10
1.0
 20
0.0
 30
0.0
  9
$UCSYDIR
 10
0.0
 20
1.0
 30
0.0
  9
$UCSORTHOREF
  2

  9
$UCSORTHOVIEW
 70
     0
  9
$UCSORGTOP
 10
0.0
 20
0.0
 30
0.0
  9
$UCSORGBOTTOM
 10
0.0
 20
0.0
 30
0.0
  9
$UCSORGLEFT
 10
0.0
 20
0.0
 30
0.0
  9
$UCSORGRIGHT
 10
0.0
 20
0.0
 30
0.0
  9
$UCSORGFRONT
 10
0.0
 20
0.0
 30
0.0
  9
$UCSORGBACK
 10
0.0
 20
0.0
 30
0.0
  9
$PUCSBASE
  2

  9
$PUCSNAME
  2

  9
$PUCSORG
 10
0.0
 20
0.0
 30
0.0
  9
$PUCSXDIR
 10
1.0
 20
0.0
 30
0.0
  9
$PUCSYDIR
 10
0.0
 20
1.0
 30
0.0
  9
$PUCSORTHOREF
  2

  9
$PUCSORTHOVIEW
 70
     0
  9
$PUCSORGTOP
 10
0.0
 20
0.0
 30
0.0
  9
$PUCSORGBOTTOM
 10
0.0
 20
0.0
 30
0.0
  9
$PUCSORGLEFT
 10
0.0
 20
0.0
 30
0.0
  9
$PUCSORGRIGHT
 10
0.0
 20
0.0
 30
0.0
  9
$PUCSORGFRONT
 10
0.0
 20
0.0
 30
0.0
  9
$PUCSORGBACK
 10
0.0
 20
0.0
 30
0.0
  9
$USERI1
 70
     0
  9
$USERI2
 70
     0
  9
$USERI3
 70
     0
  9
$USERI4
 70
     0
  9
$USERI5
 70
     0
  9
$USERR1
 40
0.0
  9
$USERR2
 40
0.0
  9
$USERR3
 40
0.0
  9
$USERR4
 40
0.0
  9
$USERR5
 40
0.0
  9
$WORLDVIEW
 70
     1
  9
$SHADEDGE
 70
     3
  9
$SHADEDIF
 70
    70
  9
$TILEMODE
 70
     1
  9
$MAXACTVP
 70
    64
  9
$PINSBASE
 10
0.0
 20
0.0
 30
0.0
  9
$PLIMCHECK
 70
     0
  9
$PEXTMIN
 10
0.0
 20
0.0
 30
0.0
  9
$PEXTMAX
 10
0.0
 20
0.0
 30
0.0
  9
$PLIMMIN
 10
0.0
 20
0.0
  9
$PLIMMAX
 10
12.0
 20
9.0
  9
$UNITMODE
 70
     0
  9
$VISRETAIN
 70
     1
  9
$PLINEGEN
 70
     0
  9
$PSLTSCALE
 70
     1
  9
$TREEDEPTH
 70
  3020
  9
$CMLSTYLE
  2
Standard
  9
$CMLJUST
 70
     0
  9
$CMLSCALE
 40
1.0
  9
$PROXYGRAPHICS
 70
     1
  9
$MEASUREMENT
 70
     0
  9
$CELWEIGHT
370
    -1
  9
$ENDCAPS
280
     0
  9
$JOINSTYLE
280
     0
  9
$LWDISPLAY
290
     0
  9
$INSUNITS
 70
     1
  9
$HYPERLINKBASE
  1

  9
$STYLESHEET
  1

  9
$XEDIT
290
     1
  9
$CEPSNTYPE
380
     0
  9
$PSTYLEMODE
290
     1
  9
$FINGERPRINTGUID
  2
{B229A313-0E41-4A3F-AA47-E24868152AA0}
  9
$VERSIONGUID
  2
{1B597145-6DAE-4684-BAC6-18E1096EA2C5}
  9
$EXTNAMES
290
     1
  9
$PSVPSCALE
 40
0.0
  9
$OLESTARTUP
290
     0
  0
ENDSEC
  0
SECTION
  2
CLASSES
  0
CLASS
  1
ACDBDICTIONARYWDFLT
  2
AcDbDictionaryWithDefault
  3
ObjectDBX Classes
 90
        0
280
     0
281
     0
  0
CLASS
  1
ACDBPLACEHOLDER
  2
AcDbPlaceHolder
  3
ObjectDBX Classes
 90
        0
280
     0
281
     0
  0
CLASS
  1
LAYOUT
  2
AcDbLayout
  3
ObjectDBX Classes
 90
        0
280
     0
281
     0
  0
CLASS
  1
DICTIONARYVAR
  2
AcDbDictionaryVar
  3
ObjectDBX Classes
 90
        0
280
     0
281
     0
  0
CLASS
  1
TABLESTYLE
  2
AcDbTableStyle
  3
ObjectDBX Classes
 90
     2047
280
     0
281
     0
  0
CLASS
  1
MATERIAL
  2
AcDbMaterial
  3
ObjectDBX Classes
 90
        0
280
     0
281
     0
  0
CLASS
  1
VISUALSTYLE
  2
AcDbVisualStyle
  3
ObjectDBX Classes
 90
     4095
280
     1
281
     0
  0
CLASS
  1
SCALE
  2
AcDbScale
  3
ObjectDBX Classes
 90
     1153
280
     1
281
     0
  0
CLASS
  1
MLEADERSTYLE
  2
AcDbMLeaderStyle
  3
ACDB_MLEADERSTYLE_CLASS
 90
   -61441
280
     1
281
     0
  0
CLASS
  1
CELLSTYLEMAP
  2
AcDbCellStyleMap
  3
ObjectDBX Classes
 90
     1152
280
     1
281
     0
  0
CLASS
  1
SORTENTSTABLE
  2
AcDbSortentsTable
  3
ObjectDBX Classes
 90
        0
280
     0
281
     0
  0
CLASS
  1
SOLID_BACKGROUND
  2
AcDbSolidBackground
  3
SCENEOE
 90
   -61441
280
     1
281
     0
  0
CLASS
  1
NPOCOLLECTION
  2
AcDbImpNonPersistentObjectsCollection
  3
ObjectDBX Classes
 90
   -64383
280
     1
281
     0
  0
CLASS
  1
ACDB_MTEXTATTRIBUTEOBJECTCONTEXTDATA_CLASS
  2
AcDbMTextAttributeObjectContextData
  3
ObjectDBX Classes
 90
   -64383
280
     1
281
     0
  0
CLASS
  1
DIMASSOC
  2
AcDbDimAssoc
  3
"AcDbDimAssoc|Product Desc:     AcDim ARX App For Dimension|Company:          Autodesk, Inc.|WEB Address:      www.autodesk.com"
 90
        0
280
     0
281
     0
  0
ENDSEC
  0
SECTION
  2
TABLES
  0
TABLE
  2
VPORT
  5
2A
330
0
100
AcDbSymbolTable
 70
     1
  0
VPORT
  5
2B
330
2A
100
AcDbSymbolTableRecord
100
AcDbViewportTableRecord
  2
*Active
 70
     0
 10
0.0
 20
0.0
 11
1.0
 21
1.0
 12
117.0132164485701
 22
8.84071374879511
 13
0.0
 23
0.0
 14
0.5
 24
0.5
 15
0.5
 25
0.5
 16
0.0
 26
0.0
 36
1.0
 17
0.0
 27
0.0
 37
0.0
 40
31.59506310324002
 41
2.095454545454545
 42
50.0
 43
0.0
 44
0.0
 50
0.0
 51
0.0
 71
     0
 72
  1000
 73
     1
 74
     2
 75
     0
 76
     0
 77
     0
 78
     0
281
     0
 65
     1
110
0.0
120
0.0
130
0.0
111
1.0
121
0.0
131
0.0
112
0.0
122
1.0
132
0.0
 79
     0
146
0.0
  0
ENDTAB
  0
TABLE
  2
LTYPE
  5
25
330
0
100
AcDbSymbolTable
 70
     2
  0
LTYPE
  5
26
330
25
100
AcDbSymbolTableRecord
100
AcDbLinetypeTableRecord
  2
ByBlock
 70
     0
  3

 72
    65
 73
     0
 40
0.0
  0
LTYPE
  5
27
330
25
100
AcDbSymbolTableRecord
100
AcDbLinetypeTableRecord
  2
ByLayer
 70
     0
  3

 72
    65
 73
     0
 40
0.0
  0
LTYPE
  5
14
330
25
100
AcDbSymbolTableRecord
100
AcDbLinetypeTableRecord
  2
Continuous
 70
     0
  3
Solid line
 72
    65
 73
     0
 40
0.0
  0
LTYPE
  5
61
330
25
100
AcDbSymbolTableRecord
100
AcDbLinetypeTableRecord
  2
HIDDEN
 70
     0
  3
_ _ _ _ _ _ _ _ _ _ _ _ _ _ _ _ _ _ _ _ _ _ _
 72
    65
 73
     2
 40
0.375
 49
0.25
 74
     0
 49
-0.125
 74
     0
  0
ENDTAB
  0
TABLE
  2
LAYER
  5
1D
102
{ACAD_XDICTIONARY
360
1E
102
}
330
0
100
AcDbSymbolTable
 70
     1
  0
LAYER
  5
6
102
{ACAD_XDICTIONARY
360
7
102
}
330
1D
100
AcDbSymbolTableRecord
100
AcDbLayerTableRecord
  2
0
 70
     0
 62
     7
  6
Continuous
370
    -3
390
9
  0
ENDTAB
  0
TABLE
  2
STYLE
  5
22
330
0
100
AcDbSymbolTable
 70
     1
  0
STYLE
  5
23
330
22
100
AcDbSymbolTableRecord
100
AcDbTextStyleTableRecord
  2
Standard
 70
     0
 40
0.0
 41
1.0
 50
0.0
 71
     0
 42
0.2
  3
technic_.ttf
  4

1001
ACAD
1000
Technic
1071
      514
  0
ENDTAB
  0
TABLE
  2
VIEW
  5
28
330
0
100
AcDbSymbolTable
 70
     0
  0
ENDTAB
  0
TABLE
  2
UCS
  5
29
330
0
100
AcDbSymbolTable
 70
     0
  0
ENDTAB
  0
TABLE
  2
APPID
  5
2E
330
0
100
AcDbSymbolTable
 70
     3
  0
APPID
  5
13
330
2E
100
AcDbSymbolTableRecord
100
AcDbRegAppTableRecord
  2
ACAD
 70
     0
  0
APPID
  5
18
330
2E
100
AcDbSymbolTableRecord
100
AcDbRegAppTableRecord
  2
ACAD_PSEXT
 70
     0
  0
APPID
  5
BA
330
2E
100
AcDbSymbolTableRecord
100
AcDbRegAppTableRecord
  2
AcDbAttr
 70
     0
  0
ENDTAB
  0
TABLE
  2
DIMSTYLE
  5
2F
330
0
100
AcDbSymbolTable
 70
     1
100
AcDbDimStyleTable
  0
DIMSTYLE
105
30
330
2F
100
AcDbSymbolTableRecord
100
AcDbDimStyleTableRecord
  2
Standard
 70
     0
340
23
  0
ENDTAB
  0
TABLE
  2
BLOCK_RECORD
  5
1
330
0
100
AcDbSymbolTable
 70
     0
  0
BLOCK_RECORD
  5
2
102
{ACAD_XDICTIONARY
360
3
102
}
330
1
100
AcDbSymbolTableRecord
100
AcDbBlockTableRecord
  2
*Model_Space
340
16
  0
BLOCK_RECORD
  5
19
330
1
100
AcDbSymbolTableRecord
100
AcDbBlockTableRecord
  2
*Paper_Space
340
1C
  0
ENDTAB
  0
ENDSEC
  0
SECTION
  2
BLOCKS
  0
BLOCK
  5
5
330
2
100
AcDbEntity
  8
0
100
AcDbBlockBegin
  2
*Model_Space
 70
     0
 71
     0
 10
0.0
 20
0.0
 30
0.0
  3
*Model_Space
  1

  0
ENDBLK
  5
15
330
2
100
AcDbEntity
  8
0
100
AcDbBlockEnd
  0
BLOCK
  5
1A
330
19
100
AcDbEntity
 67
     1
  8
0
100
AcDbBlockBegin
  2
*Paper_Space
 70
     0
 71
     0
 10
0.0
 20
0.0
 30
0.0
  3
*Paper_Space
  1

  0
ENDBLK
  5
1B
330
19
100
AcDbEntity
 67
     1
  8
0
100
AcDbBlockEnd
  0
ENDSEC
  0
SECTION
  2
ENTITIES
  0
LINE
  5
60
330
2
100
AcDbEntity
  8
0
  6
HIDDEN
 48
3.0
100
AcDbLine
 10
87.70126943620176
 20
16.36660883555663
 30
-0.0000000000000023
 11
89.45500808180302
 21
5.299289318411198
 31
-0.0000000000000023
  0
LINE
  5
62
330
2
100
AcDbEntity
  8
0
100
AcDbLine
 10
86.66061870673249
 20
17.9643844793483
 30
-0.0000000000000023
 11
86.90611870673249
 21
17.9643844793483
 31
-0.0000000000000023
  0
LINE
  5
63
330
2
100
AcDbEntity
  8
0
100
AcDbLine
 10
86.90611870673251
 20
17.0893844793483
 30
-0.0000000000000023
 11
86.90611870673249
 21
17.9643844793483
 31
-0.0000000000000023
  0
ARC
  5
64
330
2
100
AcDbEntity
  8
0
100
AcDbCircle
 10
87.03111870673251
 20
17.0893844793483
 30
-0.0000000000000023
 40
0.125
100
AcDbArc
 50
180.0
 51
270.0
  0
LINE
  5
65
330
2
100
AcDbEntity
  8
0
100
AcDbLine
 10
146.4151187067324
 20
17.9643844793483
 30
-0.0000000000000023
 11
146.4151187067324
 21
17.08938447934831
 31
-0.0000000000000023
  0
LINE
  5
66
330
2
100
AcDbEntity
  8
0
100
AcDbLine
 10
86.66061870673249
 20
0.2723844793484318
 30
-0.0000000000000023
 11
86.66061870673249
 21
17.9643844793483
 31
0.0
  0
LINE
  5
67
330
2
100
AcDbEntity
  8
0
100
AcDbLine
 10
86.90611870673249
 20
17.3393844793483
 30
-0.0000000000000023
 11
87.03111870673249
 21
17.3393844793483
 31
-0.0000000000000023
  0
LINE
  5
68
330
2
100
AcDbEntity
  8
0
100
AcDbLine
 10
87.03111870673249
 20
17.3393844793483
 30
-0.0000000000000023
 11
87.65611870673249
 21
17.9643844793483
 31
-0.0000000000000023
  0
LINE
  5
69
330
2
100
AcDbEntity
  8
0
100
AcDbLine
 10
87.65611870673249
 20
17.9643844793483
 30
-0.0000000000000023
 11
145.6651187067324
 21
17.96438447934824
 31
-0.0000000000000023
  0
LINE
  5
6A
330
2
100
AcDbEntity
  8
0
100
AcDbLine
 10
146.2901187067324
 20
17.33938447934824
 30
-0.0000000000000023
 11
146.4151187067324
 21
17.33938447934824
 31
-0.0000000000000023
  0
LINE
  5
6B
330
2
100
AcDbEntity
  8
0
100
AcDbLine
 10
146.2901187067324
 20
17.33938447934824
 30
-0.0000000000000023
 11
145.6651187067324
 21
17.96438447934824
 31
-0.0000000000000023
  0
LINE
  5
6C
330
2
100
AcDbEntity
  8
0
100
AcDbLine
 10
146.4151187067324
 20
17.96438447934824
 30
-0.0000000000000023
 11
146.6606187067325
 21
17.96438447934827
 31
-0.0000000000000023
  0
LINE
  5
6D
330
2
100
AcDbEntity
  8
0
100
AcDbLine
 10
146.6606187067325
 20
0.2723844793484318
 30
-0.0000000000000023
 11
146.6606187067325
 21
17.96438447934827
 31
0.0
  0
LINE
  5
6E
330
2
100
AcDbEntity
  8
0
  6
HIDDEN
 48
3.0
100
AcDbLine
 10
93.29100619148855
 20
3.343884479348304
 30
-0.0000000000000023
 11
95.53023122197635
 21
3.343884479348304
 31
-0.0000000000000023
  0
LINE
  5
6F
330
2
100
AcDbEntity
  8
0
  6
HIDDEN
 48
3.0
100
AcDbLine
 10
93.29100619148855
 20
3.401884479348297
 30
-0.0000000000000023
 11
95.53023122197635
 21
3.401884479348297
 31
-0.0000000000000023
  0
POINT
  5
70
330
2
100
AcDbEntity
  8
0
  6
HIDDEN
 48
3.0
100
AcDbPoint
 10
93.29100619148855
 20
3.401884479348297
 30
-0.0000000000000023
 50
0.000000000000007
  0
POINT
  5
71
330
2
100
AcDbEntity
  8
0
  6
HIDDEN
 48
3.0
100
AcDbPoint
 10
92.31557622807398
 20
3.714384479348297
 30
-0.0000000000000023
 50
0.000000000000007
  0
LINE
  5
72
330
2
100
AcDbEntity
  8
0
  6
HIDDEN
 48
3.0
100
AcDbLine
 10
92.31557622807398
 20
3.714384479348297
 30
-0.0000000000000023
 11
92.22869435533451
 21
3.714384479348297
 31
-0.0000000000000023
  0
LINE
  5
73
330
2
100
AcDbEntity
  8
0
  6
HIDDEN
 48
3.0
100
AcDbLine
 10
92.22869435533406
 20
3.77238447934829
 30
-0.0000000000000023
 11
92.31557622807398
 21
3.77238447934829
 31
-0.0000000000000023
  0
ARC
  5
74
330
2
100
AcDbEntity
  8
0
  6
HIDDEN
 48
3.0
100
AcDbCircle
 10
92.31557622807398
 20
3.33488447934829
 30
-0.0000000000000023
 40
0.4375
100
AcDbArc
 50
65.48701419333497
 51
90.0
  0
ARC
  5
75
330
2
100
AcDbEntity
  8
0
  6
HIDDEN
 48
3.0
100
AcDbCircle
 10
92.31557622807398
 20
3.33488447934829
 30
-0.0000000000000023
 40
0.3795
100
AcDbArc
 50
65.48701419333497
 51
90.0
  0
ARC
  5
76
330
2
100
AcDbEntity
  8
0
  6
HIDDEN
 48
3.0
100
AcDbCircle
 10
93.29100619148855
 20
3.714384479348297
 30
-0.0000000000000023
 40
0.3125
100
AcDbArc
 50
245.487014193335
 51
270.0
  0
ARC
  5
77
330
2
100
AcDbEntity
  8
0
  6
HIDDEN
 48
3.0
100
AcDbCircle
 10
93.29100619148855
 20
3.714384479348297
 30
-0.0000000000000023
 40
0.3705
100
AcDbArc
 50
245.487014193335
 51
270.0
  0
LINE
  5
78
330
2
100
AcDbEntity
  8
0
  6
HIDDEN
 48
3.0
100
AcDbLine
 10
92.49709474630865
 20
3.73295140530152
 30
-0.0000000000000023
 11
93.16135010703519
 21
3.430050960810235
 31
-0.0000000000000023
  0
LINE
  5
79
330
2
100
AcDbEntity
  8
0
  6
HIDDEN
 48
3.0
100
AcDbLine
 10
92.47303057703411
 20
3.680179104260873
 30
-0.0000000000000023
 11
93.13728593776065
 21
3.377278659769587
 31
-0.0000000000000023
  0
ARC
  5
7A
330
2
100
AcDbEntity
  8
0
  6
HIDDEN
 48
3.0
100
AcDbCircle
 10
96.50566118539098
 20
3.33488447934829
 30
-0.0000000000000023
 40
0.4375
100
AcDbArc
 50
90.0
 51
114.512985806665
  0
ARC
  5
7B
330
2
100
AcDbEntity
  8
0
  6
HIDDEN
 48
3.0
100
AcDbCircle
 10
96.50566118539098
 20
3.33488447934829
 30
-0.0000000000000023
 40
0.3795
100
AcDbArc
 50
90.0
 51
114.512985806665
  0
ARC
  5
7C
330
2
100
AcDbEntity
  8
0
  6
HIDDEN
 48
3.0
100
AcDbCircle
 10
95.53023122197635
 20
3.714384479348297
 30
-0.0000000000000023
 40
0.3125
100
AcDbArc
 50
270.0
 51
294.512985806665
  0
ARC
  5
7D
330
2
100
AcDbEntity
  8
0
  6
HIDDEN
 48
3.0
100
AcDbCircle
 10
95.53023122197635
 20
3.714384479348297
 30
-0.0000000000000023
 40
0.3705
100
AcDbArc
 50
270.0
 51
294.512985806665
  0
LINE
  5
7E
330
2
100
AcDbEntity
  8
0
  6
HIDDEN
 48
3.0
100
AcDbLine
 10
96.3482068364309
 20
3.680179104260873
 30
-0.0000000000000023
 11
95.68395147570425
 21
3.377278659769587
 31
-0.0000000000000023
  0
LINE
  5
7F
330
2
100
AcDbEntity
  8
0
  6
HIDDEN
 48
3.0
100
AcDbLine
 10
96.32414266715637
 20
3.73295140530152
 30
-0.0000000000000023
 11
95.65988730642971
 21
3.430050960810235
 31
-0.0000000000000023
  0
LINE
  5
80
330
2
100
AcDbEntity
  8
0
100
AcDbLine
 10
94.41061870673252
 20
1.303546861236157
 30
-0.0000000000000023
 11
94.41061870673252
 21
4.789265160684494
 31
-0.0000000000000023
  0
LINE
  5
81
330
2
100
AcDbEntity
  8
0
100
AcDbLine
 10
87.03111870673251
 20
16.9643844793483
 30
-0.0000000000000023
 11
146.2901187067324
 21
16.96438447934831
 31
-0.0000000000000023
  0
ARC
  5
82
330
2
100
AcDbEntity
  8
0
100
AcDbCircle
 10
146.2901187067324
 20
17.08938447934831
 30
-0.0000000000000023
 40
0.125
100
AcDbArc
 50
270.0
 51
0.000000000000007
  0
LINE
  5
83
330
2
100
AcDbEntity
  8
0
  6
HIDDEN
 48
3.0
100
AcDbLine
 10
98.13340716834856
 20
3.398389230568085
 30
-0.0000000000000023
 11
134.3386414312173
 21
4.716330306365506
 31
-0.0000000000000023
  0
LINE
  5
84
330
2
100
AcDbEntity
  8
0
100
AcDbLine
 10
87.36695883461937
 20
16.6853834660174
 30
-0.0000000000000004
 11
87.08443845069755
 21
16.71320036098221
 31
0.0
  0
LINE
  5
85
330
2
100
AcDbEntity
  8
0
  6
HIDDEN
 48
3.0
100
AcDbLine
 10
142.7776002235671
 20
15.32188430177263
 30
-0.0000000000000023
 11
144.6346302789813
 21
16.40515183409758
 31
-0.0000000000000023
  0
ARC
  5
86
330
2
100
AcDbEntity
  8
0
  6
HIDDEN
 48
3.0
100
AcDbCircle
 10
144.983309028644
 20
15.80741683467582
 30
-0.0000000000000023
 40
0.692
100
AcDbArc
 50
90.0
 51
120.2564371635311
  0
ARC
  5
87
330
2
100
AcDbEntity
  8
0
  6
HIDDEN
 48
3.0
100
AcDbCircle
 10
143.1262789732298
 20
14.72414930235092
 30
-0.0000000000000023
 40
0.692
100
AcDbArc
 50
120.2564371635311
 51
150.812778681539
  0
ARC
  5
88
330
2
100
AcDbEntity
  8
0
  6
HIDDEN
 48
3.0
100
AcDbCircle
 10
102.9668592784167
 20
37.15673742266947
 30
-0.0000000000000023
 40
45.308
100
AcDbArc
 50
325.9770720630126
 51
330.8127786815404
  0
LINE
  5
89
330
2
100
AcDbEntity
  8
0
  6
HIDDEN
 48
3.0
100
AcDbLine
 10
140.518751987488
 20
11.80579625737167
 30
-0.0000000000000023
 11
138.1049886295931
 21
8.230332054692042
 31
-0.0000000000000023
  0
ARC
  5
8A
330
2
100
AcDbEntity
  8
0
  6
HIDDEN
 48
3.0
100
AcDbCircle
 10
151.356709914057
 20
-0.6987222738769958
 30
-0.0000000000000023
 40
15.97924053901341
100
AcDbArc
 50
146.0277778536191
 51
153.2724392140236
  0
ARC
  5
8B
330
2
100
AcDbEntity
  8
0
  6
HIDDEN
 48
3.0
100
AcDbCircle
 10
134.0781081426992
 20
8.134351201255072
 30
-0.0000000000000023
 40
3.427935885095827
100
AcDbArc
 50
274.3588524197643
 51
331.2951265582512
  0
LINE
  5
8C
330
2
100
AcDbEntity
  8
0
100
AcDbLine
 10
144.983309028644
 20
16.49941683467583
 30
-0.0000000000000023
 11
146.4888829978207
 21
16.49941683467583
 31
-0.0000000000000023
  0
ARC
  5
8D
330
2
100
AcDbEntity
  8
0
100
AcDbCircle
 10
146.4888829978207
 20
16.62441683467583
 30
-0.0000000000000023
 40
0.125
100
AcDbArc
 50
270.0
 51
0.000000000000007
  0
LINE
  5
8E
330
2
100
AcDbEntity
  8
0
  6
HIDDEN
 48
3.0
100
AcDbLine
 10
145.9016875366016
 20
0.513115817000255
 30
-0.0000000000000024
 11
145.4195498768635
 21
16.258685497024
 31
-0.0000000000000023
  0
ARC
  5
8F
330
2
100
AcDbEntity
  8
0
  6
HIDDEN
 48
3.0
100
AcDbCircle
 10
145.1697217521491
 20
16.24941683467583
 30
-0.0000000000000023
 40
0.25
100
AcDbArc
 50
2.124707872479974
 51
90.0
  0
ARC
  5
90
330
2
100
AcDbEntity
  8
0
  6
HIDDEN
 48
3.0
100
AcDbCircle
 10
146.1515156613159
 20
0.5223844793484318
 30
-0.0000000000000047
 40
0.25
100
AcDbArc
 50
182.12470787248
 51
270.0
  0
LINE
  5
91
330
2
100
AcDbEntity
  8
0
  6
HIDDEN
 48
3.0
100
AcDbLine
 10
87.41954987686341
 20
0.513115817000255
 30
-0.0000000000000024
 11
87.86691033987245
 21
15.32129868593405
 31
-0.000000000000002
  0
ARC
  5
92
330
2
100
AcDbEntity
  8
0
100
AcDbCircle
 10
87.16972175214912
 20
0.5223844793484318
 30
-0.0000000000000047
 40
0.25
100
AcDbArc
 50
270.0
 51
357.87529212752
  0
ARC
  5
93
330
2
100
AcDbEntity
  8
0
100
AcDbCircle
 10
116.6606187067325
 20
778.8075407293491
 30
-0.0000000000000023
 40
773.7851562500005
100
AcDbArc
 50
267.9401489184176
 51
272.0598510815824
  0
ARC
  5
94
330
2
100
AcDbEntity
  8
0
  6
HIDDEN
 48
3.0
100
AcDbCircle
 10
87.33021409516803
 20
16.31218804251566
 30
0.0
 40
0.375
100
AcDbArc
 50
8.343792274411529
 51
84.37679445923119
  0
ARC
  5
95
330
2
100
AcDbEntity
  8
0
  6
HIDDEN
 48
3.0
100
AcDbCircle
 10
92.75256899478265
 20
5.828194452693737
 30
-0.0000000000000023
 40
3.33970786385298
100
AcDbArc
 50
189.1122213908252
 51
236.0814179899447
  0
LINE
  5
96
330
2
100
AcDbEntity
  8
0
  6
HIDDEN
 48
3.0
100
AcDbLine
 10
92.59969233989969
 20
2.234753367606544
 30
-0.0000000000000023
 11
91.38528651074844
 21
2.781198182945531
 31
-0.0000000000000023
  0
ARC
  5
97
330
2
100
AcDbEntity
  8
0
  6
HIDDEN
 48
3.0
100
AcDbCircle
 10
93.07158456724665
 20
3.283475316346738
 30
-0.0000000000000023
 40
1.15
100
AcDbArc
 50
245.7737380877006
 51
270.0
  0
LINE
  5
98
330
2
100
AcDbEntity
  8
0
  6
HIDDEN
 48
3.0
100
AcDbLine
 10
93.07158456724665
 20
2.133475316346733
 30
-0.0000000000000023
 11
95.79626598129244
 21
2.133475316346733
 31
-0.0000000000000023
  0
ARC
  5
99
330
2
100
AcDbEntity
  8
0
  6
HIDDEN
 48
3.0
100
AcDbCircle
 10
95.79626598129244
 20
3.283475316346738
 30
-0.0000000000000023
 40
1.15
100
AcDbArc
 50
270.0
 51
307.6465504991063
  0
LINE
  5
9A
330
2
100
AcDbEntity
  8
0
  6
HIDDEN
 48
3.0
100
AcDbLine
 10
96.49867294683006
 20
2.37291260309506
 30
-0.0000000000000023
 11
97.34061344975379
 21
3.022384479348432
 31
-0.0000000000000023
  0
ARC
  5
9B
330
2
100
AcDbEntity
  8
0
  6
HIDDEN
 48
3.0
100
AcDbCircle
 10
92.75256899478265
 20
5.828194452693737
 30
-0.0000000000000023
 40
3.33970786385298
100
AcDbArc
 50
237.1545205991897
 51
245.8375088474405
  0
LINE
  5
9C
330
2
100
AcDbEntity
  8
0
  6
HIDDEN
 48
3.0
100
AcDbLine
 10
97.40984315850258
 20
3.075788192173064
 30
-0.0000000000000023
 11
97.55899635703699
 21
3.190844787460875
 31
-0.0000000000000023
  0
ARC
  5
9D
330
2
100
AcDbEntity
  8
0
  6
HIDDEN
 48
3.0
100
AcDbCircle
 10
98.1697850227219
 20
2.399051123763798
 30
-0.0000000000000023
 40
1.0
100
AcDbArc
 50
92.08475750590451
 51
127.6465504991064
  0
LINE
  5
9E
330
2
100
AcDbEntity
  8
0
100
AcDbLine
 10
146.6606187067325
 20
17.96438447934827
 30
0.0
 11
146.6134725624824
 21
16.61429555128773
 31
0.0
  0
LINE
  5
9F
330
2
100
AcDbEntity
  8
0
  6
HIDDEN
 48
3.0
100
AcDbLine
 10
86.66061870673249
 20
17.9643844793483
 30
0.0
 11
86.68962312414234
 21
17.13380663607657
 31
0.0
  0
ARC
  5
A0
330
2
100
AcDbEntity
  8
0
  6
HIDDEN
 48
3.0
100
AcDbCircle
 10
87.1273563063767
 20
17.14909261563227
 30
0.0
 40
0.4379999999999999
100
AcDbArc
 50
182.0000000000004
 51
264.3767944592312
  0
LINE
  5
A1
330
2
100
AcDbEntity
  8
0
100
AcDbLine
 10
86.57599603396122
 20
14.29232370509337
 30
-0.0000000000000023
 11
89.44416647664926
 21
14.54325610388869
 31
-0.0000000000000023
  0
LINE
  5
A2
330
2
100
AcDbEntity
  8
0
100
AcDbLine
 10
86.66061870673249
 20
0.2723844793484318
 30
-0.0000000000000023
 11
146.6606187067325
 21
0.2723844793484318
 31
-0.0000000000000023
  0
LINE
  5
A3
330
2
100
AcDbEntity
  8
0
  6
HIDDEN
 48
3.0
100
AcDbLine
 10
93.31686870673252
 20
3.343884479348304
 30
-0.0000000000000023
 11
93.31686870673252
 21
3.401884479348297
 31
-0.0000000000000023
  0
LINE
  5
A4
330
2
100
AcDbEntity
  8
0
  6
HIDDEN
 48
3.0
100
AcDbLine
 10
95.50436870673252
 20
3.343884479348304
 30
-0.0000000000000023
 11
95.50436870673252
 21
3.401884479348297
 31
-0.0000000000000023
  0
LINE
  5
A5
330
2
100
AcDbEntity
  8
0
  6
HIDDEN
 48
2.5
100
AcDbLine
 10
95.16061870673255
 20
3.34388447934829
 30
-0.0000000000000023
 11
95.16061870673252
 21
-0.5035930194010234
 31
-0.0000000000000023
  0
LINE
  5
A6
330
2
100
AcDbEntity
  8
0
  6
HIDDEN
 48
2.5
100
AcDbLine
 10
93.66061870673249
 20
3.343884479348304
 30
-0.0000000000000023
 11
93.66061870673252
 21
-0.5035930194010234
 31
-0.0000000000000023
  0
ATTDEF
  5
A7
330
2
100
AcDbEntity
  8
0
100
AcDbText
 10
116.6606187067326
 20
16.52238447934831
 30
-0.0000000000000023
 40
0.5
  1
AMERICAN STANDARD
 11
116.6606187067326
 21
17.02238447934831
 31
-0.0000000000000023
100
AcDbAttributeDefinition
  3

  2
BRAND
 70
     9
 74
     3
1001
AcDbAttr
1070
     0
1070
     1
  0
ATTDEF
  5
A8
330
2
100
AcDbEntity
  8
0
100
AcDbText
 10
116.6606187067326
 20
15.689051146015
 30
-0.0000000000000023
 40
0.5
  1
2396 ICH
 11
116.6606187067326
 21
16.189051146015
 31
-0.0000000000000023
100
AcDbAttributeDefinition
  3

  2
FIXTURE-NUMBER
 70
     9
 74
     3
1001
AcDbAttr
1070
     0
1070
     1
  0
ATTDEF
  5
A9
330
2
100
AcDbEntity
  8
0
100
AcDbText
 10
116.6606187067326
 20
14.85571781268165
 30
-0.0000000000000023
 40
0.5
  1
PRINCETON ICH 5X34 AFR-LHO
 11
116.6606187067326
 21
15.35571781268165
 31
-0.0000000000000023
100
AcDbAttributeDefinition
  3

  2
PRODUCT-NAME
 70
     9
 74
     3
1001
AcDbAttr
1070
     0
1070
     1
  0
ATTDEF
  5
AA
330
2
100
AcDbEntity
  8
0
100
AcDbText
 10
116.6606187067326
 20
14.02238447934831
 30
-0.0000000000000023
 40
0.5
  1
EN. STEEL w/AMERICAST & INTEGRAL O'FLOW
 11
116.6606187067326
 21
14.52238447934831
 31
-0.0000000000000023
100
AcDbAttributeDefinition
  3

  2
MATERIAL
 70
     9
 74
     3
1001
AcDbAttr
1070
     0
1070
     1
  0
ENDSEC
  0
SECTION
  2
OBJECTS
  0
DICTIONARY
  5
B
330
0
100
AcDbDictionary
281
     1
  3
ACAD_COLOR
350
37
  3
ACAD_GROUP
350
32
  3
ACAD_LAYOUT
350
17
  3
ACAD_MATERIAL
350
D
  3
ACAD_MLINESTYLE
350
33
  3
ACAD_PLOTSETTINGS
350
34
  3
ACAD_PLOTSTYLENAME
350
A
  3
ACAD_SCALELIST
350
38
  3
ACAD_TABLESTYLE
350
39
  3
ACAD_VISUALSTYLE
350
2D
  3
ACDB_RECOMPOSE_DATA
350
AE
  3
ACDBHEADERROUNDTRIPXREC
350
C5
  3
AcDbVariableDictionary
350
BB
  0
DICTIONARY
  5
1E
330
1D
100
AcDbDictionary
280
     1
281
     1
  3
ACAD_LAYERFILTERS
360
1F
  3
ACAD_LAYERSTATES
360
20
  3
ACLYDICTIONARY
360
21
  0
DICTIONARY
  5
7
330
6
100
AcDbDictionary
280
     1
281
     1
  3
ACAD_XREC_ROUNDTRIP
360
AF
  3
ADSK_XREC_LAYER_RECONCILED
360
8
  0
DICTIONARY
  5
3
330
2
100
AcDbDictionary
280
     1
281
     1
  3
ACAD_SORTENTS
360
AB
  0
DICTIONARY
  5
37
102
{ACAD_REACTORS
330
B
102
}
330
B
100
AcDbDictionary
281
     1
  0
DICTIONARY
  5
32
102
{ACAD_REACTORS
330
B
102
}
330
B
100
AcDbDictionary
281
     1
  0
DICTIONARY
  5
17
102
{ACAD_REACTORS
330
B
102
}
330
B
100
AcDbDictionary
281
     1
  3
Layout1
350
1C
  3
Model
350
16
  0
DICTIONARY
  5
D
102
{ACAD_REACTORS
330
B
102
}
330
B
100
AcDbDictionary
281
     1
  3
ByBlock
350
36
  3
ByLayer
350
35
  3
Global
350
C
  0
DICTIONARY
  5
33
102
{ACAD_REACTORS
330
B
102
}
330
B
100
AcDbDictionary
281
     1
  3
Standard
350
3A
  0
DICTIONARY
  5
34
102
{ACAD_REACTORS
330
B
102
}
330
B
100
AcDbDictionary
281
     1
  0
ACDBDICTIONARYWDFLT
  5
A
102
{ACAD_REACTORS
330
B
102
}
330
B
100
AcDbDictionary
281
     1
  3
Normal
350
9
100
AcDbDictionaryWithDefault
340
9
  0
DICTIONARY
  5
38
102
{ACAD_REACTORS
330
B
102
}
330
B
100
AcDbDictionary
281
     1
  3
A0
350
3F
  3
A1
350
40
  3
A2
350
41
  3
A3
350
42
  3
A4
350
43
  3
A5
350
44
  3
A6
350
45
  3
A7
350
46
  3
A8
350
47
  3
A9
350
48
  3
B0
350
49
  3
B1
350
4A
  3
B2
350
4B
  3
B3
350
4C
  3
B4
350
4D
  3
B5
350
4E
  3
B6
350
4F
  3
B7
350
50
  3
B8
350
51
  3
B9
350
52
  3
C0
350
53
  3
C1
350
54
  3
C2
350
55
  3
C3
350
56
  3
C4
350
57
  3
C5
350
58
  3
C6
350
59
  3
C7
350
5A
  3
C8
350
5B
  3
C9
350
5C
  3
D0
350
5D
  3
D1
350
5E
  3
D2
350
5F
  0
DICTIONARY
  5
39
102
{ACAD_REACTORS
330
B
102
}
330
B
100
AcDbDictionary
281
     1
  3
Standard
350
3B
  0
DICTIONARY
  5
2D
102
{ACAD_REACTORS
330
B
102
}
330
B
100
AcDbDictionary
281
     1
  3
2dWireframe
350
2C
  3
3dWireframe
350
3E
  3
Realistic
350
3D
  0
XRECORD
  5
AE
102
{ACAD_REACTORS
330
B
102
}
330
B
100
AcDbXrecord
280
     1
 90
        1
330
3B
  0
DICTIONARY
  5
C5
102
{ACAD_REACTORS
330
B
102
}
330
B
100
AcDbDictionary
281
     1
  3
COLORDICT
350
C6
  3
MATERIALDICT
350
C7
  0
DICTIONARY
  5
BB
102
{ACAD_REACTORS
330
B
102
}
330
B
100
AcDbDictionary
281
     1
  3
CANNOSCALE
350
BF
  3
CMLEADERSTYLE
350
BD
  3
CTABLESTYLE
350
BC
  3
DIMASSOC
350
C4
  3
HIDETEXT
350
C3
  3
LIGHTINGUNITS
350
C0
  3
MSLTSCALE
350
BE
  0
DICTIONARY
  5
1F
102
{ACAD_REACTORS
330
1E
102
}
330
1E
100
AcDbDictionary
281
     1
  0
DICTIONARY
  5
20
102
{ACAD_REACTORS
330
1E
102
}
330
1E
100
AcDbDictionary
281
     1
  0
DICTIONARY
  5
21
102
{ACAD_REACTORS
330
1E
102
}
330
1E
100
AcDbDictionary
281
     1
1001
ACAD
1000
<All
  0
XRECORD
  5
AF
102
{ACAD_REACTORS
330
7
102
}
330
7
100
AcDbXrecord
280
     1
102
MATERIAL
340
C
  0
XRECORD
  5
8
102
{ACAD_REACTORS
330
7
102
}
330
7
100
AcDbXrecord
280
     1
290
     1
  0
SORTENTSTABLE
  5
AB
102
{ACAD_REACTORS
330
3
102
}
330
3
100
AcDbSortentsTable
330
2
331
60
  5
65
331
62
  5
66
331
63
  5
67
331
64
  5
68
331
65
  5
69
331
66
  5
6A
331
67
  5
6B
331
68
  5
6C
331
69
  5
6D
331
6A
  5
6E
331
6B
  5
6F
331
6C
  5
70
331
6D
  5
71
331
6E
  5
72
331
6F
  5
73
331
70
  5
74
331
71
  5
75
331
72
  5
76
331
73
  5
77
331
74
  5
78
331
75
  5
79
331
76
  5
7A
331
77
  5
7B
331
78
  5
7C
331
79
  5
7D
331
7A
  5
7E
331
7B
  5
7F
331
7C
  5
80
331
7D
  5
81
331
7E
  5
82
331
7F
  5
83
331
80
  5
84
331
81
  5
85
331
82
  5
86
331
83
  5
87
331
84
  5
88
331
85
  5
89
331
86
  5
8A
331
87
  5
8B
331
88
  5
8C
331
89
  5
8D
331
8A
  5
8E
331
8B
  5
8F
331
8C
  5
90
331
8D
  5
91
331
8E
  5
92
331
8F
  5
93
331
90
  5
94
331
91
  5
95
331
92
  5
96
331
93
  5
97
331
94
  5
98
331
95
  5
99
331
96
  5
9A
331
97
  5
9B
331
98
  5
9C
331
99
  5
9D
331
9A
  5
9E
331
9B
  5
9F
331
9C
  5
A0
331
9D
  5
A1
331
9E
  5
A2
331
9F
  5
A3
331
A0
  5
A4
331
A1
  5
A5
331
A2
  5
A6
331
A3
  5
A7
331
A4
  5
A8
331
A5
  5
A9
331
A6
  5
AA
331
A7
  5
60
331
A8
  5
64
331
A9
  5
63
331
AA
  5
62
  0
LAYOUT
  5
1C
102
{ACAD_REACTORS
330
17
102
}
330
17
100
AcDbPlotSettings
  1

  2
None
  4

  6

 40
0.0
 41
0.0
 42
0.0
 43
0.0
 44
0.0
 45
0.0
 46
0.0
 47
0.0
 48
0.0
 49
0.0
140
0.0
141
0.0
142
1.0
143
1.0
 70
   688
 72
     0
 73
     0
 74
     5
  7
monochrome.ctb
 75
    16
147
1.0
148
0.0
149
0.0
100
AcDbLayout
  1
Layout1
 70
     1
 71
     1
 10
0.0
 20
0.0
 11
12.0
 21
9.0
 12
0.0
 22
0.0
 32
0.0
 14
0.0
 24
0.0
 34
0.0
 15
0.0
 25
0.0
 35
0.0
146
0.0
 13
0.0
 23
0.0
 33
0.0
 16
1.0
 26
0.0
 36
0.0
 17
0.0
 27
1.0
 37
0.0
 76
     0
330
19
  0
LAYOUT
  5
16
102
{ACAD_REACTORS
330
17
102
}
330
17
100
AcDbPlotSettings
  1

  2
\\sal-ist06-srv\HP LaserJet 5Si Payroll
  4
11x17
  6

 40
7.143749713897705
 41
7.143725872039795
 42
7.143768310546875
 43
7.14373779296875
 44
279.3999938964844
 45
431.7999877929688
 46
6.594433405510236
 47
0.0
 48
-234.8785001004962
 49
-77.53212797782885
140
2.521914054110312
141
65.71332136845103
142
1.0
143
14.4426099124129
 70
 11956
 72
     0
 73
     1
 74
     4
  7
monochrome.ctb
 75
     0
147
0.0692395630751293
148
5965.913902552604
149
1969.316050636853
100
AcDbLayout
  1
Model
 70
     1
 71
     0
 10
0.0
 20
0.0
 11
12.0
 21
9.0
 12
0.0
 22
0.0
 32
0.0
 14
0.0
 24
0.0
 34
0.0
 15
0.0
 25
0.0
 35
0.0
146
0.0
 13
0.0
 23
0.0
 33
0.0
 16
1.0
 26
0.0
 36
0.0
 17
0.0
 27
1.0
 37
0.0
 76
     0
330
2
1001
ACAD_PSEXT
1000
\\sal-ist06-srv\HP LaserJet 5Si Payroll
1000
HP LaserJet 5Si
1000
Human Resources   (Penny Creer, Salem Ohio)
1000
Hewlett Packard LaserJet 5SI for Payroll Printing
1070
     0
  0
MATERIAL
  5
36
102
{ACAD_REACTORS
330
D
102
}
102
{ACAD_XDICTIONARY
360
B7
102
}
330
D
100
AcDbMaterial
  1
ByBlock
 73
     2
 78
     2
172
     2
176
     2
270
     2
273
     0
274
     2
  0
MATERIAL
  5
35
102
{ACAD_REACTORS
330
D
102
}
102
{ACAD_XDICTIONARY
360
B5
102
}
330
D
100
AcDbMaterial
  1
ByLayer
 73
     2
 78
     2
172
     2
176
     2
270
     2
273
     0
274
     2
  0
MATERIAL
  5
C
102
{ACAD_REACTORS
330
D
102
}
102
{ACAD_XDICTIONARY
360
E
102
}
330
D
100
AcDbMaterial
  1
Global
 73
     2
 43
0.0208000000566244
 43
0.0
 43
0.0
 43
0.0
 43
0.0
 43
0.0208000000566244
 43
0.0
 43
0.0
 43
0.0
 43
0.0
 43
1.0
 43
0.0
 43
0.0
 43
0.0
 43
0.0
 43
1.0
 78
     2
172
     2
 49
0.0208000000566244
 49
0.0
 49
0.0
 49
0.0
 49
0.0
 49
0.0208000000566244
 49
0.0
 49
0.0
 49
0.0
 49
0.0
 49
1.0
 49
0.0
 49
0.0
 49
0.0
 49
0.0
 49
1.0
176
     2
142
0.0208000000566244
142
0.0
142
0.0
142
0.0
142
0.0
142
0.0208000000566244
142
0.0
142
0.0
142
0.0
142
0.0
142
1.0
142
0.0
142
0.0
142
0.0
142
0.0
142
1.0
270
     2
144
0.0208000000566244
144
0.0
144
0.0
144
0.0
144
0.0
144
0.0208000000566244
144
0.0
144
0.0
144
0.0
144
0.0
144
1.0
144
0.0
144
0.0
144
0.0
144
0.0
144
1.0
273
     0
274
     2
1001
ACAD
1070
    -1
1070
     3
1070
     0
1000

1071
        0
1070
     0
  0
MLINESTYLE
  5
3A
102
{ACAD_REACTORS
330
33
102
}
330
33
100
AcDbMlineStyle
  2
STANDARD
 70
     0
  3

 62
   256
 51
90.0
 52
90.0
 71
     2
 49
0.5
 62
   256
  6
BYLAYER
 49
-0.5
 62
   256
  6
BYLAYER
  0
ACDBPLACEHOLDER
  5
9
102
{ACAD_REACTORS
330
A
102
}
330
A
  0
ACAD_PROXY_OBJECT
  5
3F
102
{ACAD_REACTORS
330
38
102
}
330
38
100
AcDbProxyObject
 90
      499
 91
      507
 95
   983063
 70
     0
 93
       49
310
904313A3100580
  0
ACAD_PROXY_OBJECT
  5
40
102
{ACAD_REACTORS
330
38
102
}
330
38
100
AcDbProxyObject
 90
      499
 91
      507
 95
   983063
 70
     0
 93
      113
310
904313A32004000000000000004000
  0
ACAD_PROXY_OBJECT
  5
41
102
{ACAD_REACTORS
330
38
102
}
330
38
100
AcDbProxyObject
 90
      499
 91
      507
 95
   983063
 70
     0
 93
      113
310
904313A34004000000000000104000
  0
ACAD_PROXY_OBJECT
  5
42
102
{ACAD_REACTORS
330
38
102
}
330
38
100
AcDbProxyObject
 90
      499
 91
      507
 95
   983063
 70
     0
 93
      113
310
904313A35004000000000000144000
  0
ACAD_PROXY_OBJECT
  5
43
102
{ACAD_REACTORS
330
38
102
}
330
38
100
AcDbProxyObject
 90
      499
 91
      507
 95
   983063
 70
     0
 93
      113
310
904313A38004000000000000204000
  0
ACAD_PROXY_OBJECT
  5
44
102
{ACAD_REACTORS
330
38
102
}
330
38
100
AcDbProxyObject
 90
      499
 91
      507
 95
   983063
 70
     0
 93
      121
310
905313A3130004000000000000244000
  0
ACAD_PROXY_OBJECT
  5
45
102
{ACAD_REACTORS
330
38
102
}
330
38
100
AcDbProxyObject
 90
      499
 91
      507
 95
   983063
 70
     0
 93
      121
310
905313A3136004000000000000304000
  0
ACAD_PROXY_OBJECT
  5
46
102
{ACAD_REACTORS
330
38
102
}
330
38
100
AcDbProxyObject
 90
      499
 91
      507
 95
   983063
 70
     0
 93
      121
310
905313A3230004000000000000344000
  0
ACAD_PROXY_OBJECT
  5
47
102
{ACAD_REACTORS
330
38
102
}
330
38
100
AcDbProxyObject
 90
      499
 91
      507
 95
   983063
 70
     0
 93
      121
310
905313A33300040000000000003E4000
  0
ACAD_PROXY_OBJECT
  5
48
102
{ACAD_REACTORS
330
38
102
}
330
38
100
AcDbProxyObject
 90
      499
 91
      507
 95
   983063
 70
     0
 93
      121
310
905313A3430004000000000000444000
  0
ACAD_PROXY_OBJECT
  5
49
102
{ACAD_REACTORS
330
38
102
}
330
38
100
AcDbProxyObject
 90
      499
 91
      507
 95
   983063
 70
     0
 93
      121
310
905313A3530004000000000000494000
  0
ACAD_PROXY_OBJECT
  5
4A
102
{ACAD_REACTORS
330
38
102
}
330
38
100
AcDbProxyObject
 90
      499
 91
      507
 95
   983063
 70
     0
 93
      129
310
906313A313030004000000000000594000
  0
ACAD_PROXY_OBJECT
  5
4B
102
{ACAD_REACTORS
330
38
102
}
330
38
100
AcDbProxyObject
 90
      499
 91
      507
 95
   983063
 70
     0
 93
      113
310
904323A31000000000000000010100
  0
ACAD_PROXY_OBJECT
  5
4C
102
{ACAD_REACTORS
330
38
102
}
330
38
100
AcDbProxyObject
 90
      499
 91
      507
 95
   983063
 70
     0
 93
      113
310
904343A31000000000000000410100
  0
ACAD_PROXY_OBJECT
  5
4D
102
{ACAD_REACTORS
330
38
102
}
330
38
100
AcDbProxyObject
 90
      499
 91
      507
 95
   983063
 70
     0
 93
      113
310
904383A31000000000000000810100
  0
ACAD_PROXY_OBJECT
  5
4E
102
{ACAD_REACTORS
330
38
102
}
330
38
100
AcDbProxyObject
 90
      499
 91
      507
 95
   983063
 70
     0
 93
      121
310
90531303A31000000000000000910100
  0
ACAD_PROXY_OBJECT
  5
4F
102
{ACAD_REACTORS
330
38
102
}
330
38
100
AcDbProxyObject
 90
      499
 91
      507
 95
   983063
 70
     0
 93
      129
310
9063130303A31000000000000001650100
  0
ACAD_PROXY_OBJECT
  5
50
102
{ACAD_REACTORS
330
38
102
}
330
38
100
AcDbProxyObject
 90
      499
 91
      507
 95
   983063
 70
     0
 93
      265
310
90F312F31323822203D2031272D302200000000000000200FC000000000000284000
  0
ACAD_PROXY_OBJECT
  5
51
102
{ACAD_REACTORS
330
38
102
}
330
38
100
AcDbProxyObject
 90
      499
 91
      507
 95
   983063
 70
     0
 93
      257
310
90E312F363422203D2031272D302200000000000000240FC000000000000284000
  0
ACAD_PROXY_OBJECT
  5
52
102
{ACAD_REACTORS
330
38
102
}
330
38
100
AcDbProxyObject
 90
      499
 91
      507
 95
   983063
 70
     0
 93
      257
310
90E312F333222203D2031272D302200000000000000280FC000000000000284000
  0
ACAD_PROXY_OBJECT
  5
53
102
{ACAD_REACTORS
330
38
102
}
330
38
100
AcDbProxyObject
 90
      499
 91
      507
 95
   983063
 70
     0
 93
      257
310
90E312F313622203D2031272D3022000000000000002C0FC000000000000284000
  0
ACAD_PROXY_OBJECT
  5
54
102
{ACAD_REACTORS
330
38
102
}
330
38
100
AcDbProxyObject
 90
      499
 91
      507
 95
   983063
 70
     0
 93
      257
310
90E332F333222203D2031272D3022000000000000002E0FC000000000000284000
  0
ACAD_PROXY_OBJECT
  5
55
102
{ACAD_REACTORS
330
38
102
}
330
38
100
AcDbProxyObject
 90
      499
 91
      507
 95
   983063
 70
     0
 93
      249
310
90D312F3822203D2031272D302200000000000000300FC000000000000284000
  0
ACAD_PROXY_OBJECT
  5
56
102
{ACAD_REACTORS
330
38
102
}
330
38
100
AcDbProxyObject
 90
      499
 91
      507
 95
   983063
 70
     0
 93
      257
310
90E332F313622203D2031272D302200000000000000320FC000000000000284000
  0
ACAD_PROXY_OBJECT
  5
57
102
{ACAD_REACTORS
330
38
102
}
330
38
100
AcDbProxyObject
 90
      499
 91
      507
 95
   983063
 70
     0
 93
      249
310
90D312F3422203D2031272D302200000000000000340FC000000000000284000
  0
ACAD_PROXY_OBJECT
  5
58
102
{ACAD_REACTORS
330
38
102
}
330
38
100
AcDbProxyObject
 90
      499
 91
      507
 95
   983063
 70
     0
 93
      249
310
90D332F3822203D2031272D302200000000000000360FC000000000000284000
  0
ACAD_PROXY_OBJECT
  5
59
102
{ACAD_REACTORS
330
38
102
}
330
38
100
AcDbProxyObject
 90
      499
 91
      507
 95
   983063
 70
     0
 93
      249
310
90D312F3222203D2031272D302200000000000000380FC000000000000284000
  0
ACAD_PROXY_OBJECT
  5
5A
102
{ACAD_REACTORS
330
38
102
}
330
38
100
AcDbProxyObject
 90
      499
 91
      507
 95
   983063
 70
     0
 93
      249
310
90D332F3422203D2031272D3022000000000000003A0FC000000000000284000
  0
ACAD_PROXY_OBJECT
  5
5B
102
{ACAD_REACTORS
330
38
102
}
330
38
100
AcDbProxyObject
 90
      499
 91
      507
 95
   983063
 70
     0
 93
      169
310
90B3122203D2031272D3022004000000000000284000
  0
ACAD_PROXY_OBJECT
  5
5C
102
{ACAD_REACTORS
330
38
102
}
330
38
100
AcDbProxyObject
 90
      499
 91
      507
 95
   983063
 70
     0
 93
      265
310
90F312D312F3222203D2031272D3022000000000000003E0FC000000000000284000
  0
ACAD_PROXY_OBJECT
  5
5D
102
{ACAD_REACTORS
330
38
102
}
330
38
100
AcDbProxyObject
 90
      499
 91
      507
 95
   983063
 70
     0
 93
      233
310
90B3322203D2031272D30220000000000000002100000000000000284000
  0
ACAD_PROXY_OBJECT
  5
5E
102
{ACAD_REACTORS
330
38
102
}
330
38
100
AcDbProxyObject
 90
      499
 91
      507
 95
   983063
 70
     0
 93
      233
310
90B3622203D2031272D30220000000000000006100000000000000284000
  0
ACAD_PROXY_OBJECT
  5
5F
102
{ACAD_REACTORS
330
38
102
}
330
38
100
AcDbProxyObject
 90
      499
 91
      507
 95
   983063
 70
     0
 93
      257
310
90E31272D3022203D2031272D3022000000000000000A100000000000000284000
  0
TABLESTYLE
  5
3B
102
{ACAD_REACTORS
330
39
102
}
102
{ACAD_XDICTIONARY
360
3C
102
}
330
39
100
AcDbTableStyle
  3
Standard
 70
     0
 71
     0
 40
0.06
 41
0.06
280
     0
281
     0
  7
Standard
140
0.18
170
     2
 62
     0
 63
     7
283
     0
274
    -2
284
     1
 64
     0
275
    -2
285
     1
 65
     0
276
    -2
286
     1
 66
     0
277
    -2
287
     1
 67
     0
278
    -2
288
     1
 68
     0
279
    -2
289
     1
 69
     0
  7
Standard
140
0.25
170
     5
 62
     0
 63
     7
283
     0
274
    -2
284
     1
 64
     0
275
    -2
285
     1
 65
     0
276
    -2
286
     1
 66
     0
277
    -2
287
     1
 67
     0
278
    -2
288
     1
 68
     0
279
    -2
289
     1
 69
     0
  7
Standard
140
0.18
170
     5
 62
     0
 63
     7
283
     0
274
    -2
284
     1
 64
     0
275
    -2
285
     1
 65
     0
276
    -2
286
     1
 66
     0
277
    -2
287
     1
 67
     0
278
    -2
288
     1
 68
     0
279
    -2
289
     1
 69
     0
  0
ACAD_PROXY_OBJECT
  5
2C
102
{ACAD_REACTORS
330
2D
102
}
330
2D
100
AcDbProxyObject
 90
      499
 91
      506
 95
   983063
 70
     0
 93
      452
310
430C9915DA5C99599C985B5940104902404333333333333E3BF0000000000000FB0107901411070040501600405405064090741402480A0340
1001
ACAD
1000
AcDbSavedByObjectVersion
1070
     0
  0
ACAD_PROXY_OBJECT
  5
3E
102
{ACAD_REACTORS
330
2D
102
}
330
2D
100
AcDbProxyObject
 90
      499
 91
      506
 95
   983063
 70
     0
 93
      452
310
430CD915DA5C99599C985B5940105902404333333333333E3BF0000000000000FB0107901411070040501600405405064090741402480A0340
1001
ACAD
1000
AcDbSavedByObjectVersion
1070
     0
  0
ACAD_PROXY_OBJECT
  5
3D
102
{ACAD_REACTORS
330
2D
102
}
330
2D
100
AcDbProxyObject
 90
      499
 91
      506
 95
   983063
 70
     0
 93
      436
310
429499585B1A5CDD1A58C010840902404333333333333E3BF0000000000000FB01079019070040501508421405064090741402480A1B40
1001
ACAD
1000
AcDbSavedByObjectVersion
1070
     0
  0
XRECORD
  5
C6
102
{ACAD_REACTORS
330
C5
102
}
330
C5
100
AcDbXrecord
280
     1
340
37
  0
XRECORD
  5
C7
102
{ACAD_REACTORS
330
C5
102
}
330
C5
100
AcDbXrecord
280
     1
340
D
  0
DICTIONARYVAR
  5
BF
102
{ACAD_REACTORS
330
BB
102
}
330
BB
100
DictionaryVariables
280
     0
  1
1:1
  0
DICTIONARYVAR
  5
BD
102
{ACAD_REACTORS
330
BB
102
}
330
BB
100
DictionaryVariables
280
     0
  1
STANDARD
  0
DICTIONARYVAR
  5
BC
102
{ACAD_REACTORS
330
BB
102
}
330
BB
100
DictionaryVariables
280
     0
  1
STANDARD
  0
DICTIONARYVAR
  5
C4
102
{ACAD_REACTORS
330
BB
102
}
330
BB
100
DictionaryVariables
280
     0
  1
2
  0
DICTIONARYVAR
  5
C3
102
{ACAD_REACTORS
330
BB
102
}
330
BB
100
DictionaryVariables
280
     0
  1
1
  0
DICTIONARYVAR
  5
C0
102
{ACAD_REACTORS
330
BB
102
}
330
BB
100
DictionaryVariables
280
     0
  1
2
  0
DICTIONARYVAR
  5
BE
102
{ACAD_REACTORS
330
BB
102
}
330
BB
100
DictionaryVariables
280
     0
  1
1
  0
DICTIONARY
  5
B7
330
36
100
AcDbDictionary
280
     1
281
     1
  3
ACAD_XREC_ROUNDTRIP
360
B8
  0
DICTIONARY
  5
B5
330
35
100
AcDbDictionary
280
     1
281
     1
  3
ACAD_XREC_ROUNDTRIP
360
B6
  0
DICTIONARY
  5
E
330
C
100
AcDbDictionary
280
     1
281
     1
  3
ACAD_XREC_ROUNDTRIP
360
B0
  3
BUMPTILE
360
F
  3
DIFFUSETILE
360
10
  3
OPACITYTILE
360
11
  3
REFLECTIONTILE
360
12
  0
DICTIONARY
  5
3C
330
3B
100
AcDbDictionary
280
     1
281
     1
  3
ACAD_ROUNDTRIP_2008_TABLESTYLE_CELLSTYLEMAP
360
AD
  3
ACAD_XREC_ROUNDTRIP
360
B9
  0
XRECORD
  5
B8
102
{ACAD_REACTORS
330
B7
102
}
330
B7
100
AcDbXrecord
280
     1
102
MATERIAL
148
0.0
149
0.0
149
0.0
 93
        0
 94
       63
282
     0
 72
     1
 77
     1
171
     1
175
     1
179
     1
273
     0
  0
XRECORD
  5
B6
102
{ACAD_REACTORS
330
B5
102
}
330
B5
100
AcDbXrecord
280
     1
102
MATERIAL
148
0.0
149
0.0
149
0.0
 93
        0
 94
       63
282
     0
 72
     1
 77
     1
171
     1
175
     1
179
     1
273
     0
  0
XRECORD
  5
B0
102
{ACAD_REACTORS
330
E
102
}
330
E
100
AcDbXrecord
280
     1
102
MATERIAL
148
0.0
149
0.0
149
0.0
 93
        0
 94
       63
282
     0
 72
     1
 77
     1
171
     1
175
     1
179
     1
273
     0
  0
XRECORD
  5
F
102
{ACAD_REACTORS
330
E
102
}
330
E
100
AcDbXrecord
280
     1
270
     1
271
     1
  0
XRECORD
  5
10
102
{ACAD_REACTORS
330
E
102
}
330
E
100
AcDbXrecord
280
     1
270
     1
271
     1
  0
XRECORD
  5
11
102
{ACAD_REACTORS
330
E
102
}
330
E
100
AcDbXrecord
280
     1
270
     1
271
     1
  0
XRECORD
  5
12
102
{ACAD_REACTORS
330
E
102
}
330
E
100
AcDbXrecord
280
     1
270
     1
271
     1
  0
ACAD_PROXY_OBJECT
  5
AD
102
{ACAD_REACTORS
330
3C
102
}
330
3C
100
AcDbProxyObject
 90
      499
 91
      509
 95
   983063
 70
     0
 93
     5304
310
40D054060020000020000003200101A000080002A5058000000C100000000000000340FD012E07A17AD46E2B8FCB81E85EB51B8AE3F2E07A17AD46E2B8FCB81E85EB51B8AE3F02B5E8DC0F42B1CFC0AD7A3703D0AC73F419019018000000C1003FBFFFFFE02B5E8DC0F42A9CFD029018000000C1003FBFFFFFE02B5E8DC0F4
310
2A9CFD049018000000C1003FBFFFFFE02B5E8DC0F42A9CFD089018000000C1003FBFFFFFE02B5E8DC0F42A9CFD109018000000C1003FBFFFFFE02B5E8DC0F42A9CFD209018000000C1003FBFFFFFE02B5E8DC0F42A9CFD01405075F5449544C450041501A8000000C800406800020000A9416000000304000AD7A3703D0AC7
310
3F404B81E85EB51B8AE3F2E07A17AD46E2B8FCB81E85EB51B8AE3F2E07A17AD46E2B8FC0AD7A3703D0AC73F02B5E8DC0F42B1CFD0640640600000030400FEFFFFFF80AD7A3703D0AA73F40A40600000030400FEFFFFFF80AD7A3703D0AA73F41240600000030400FEFFFFFF80AD7A3703D0AA73F42240600000030400FEFFF
310
FFF80AD7A3703D0AA73F44240600000030400FEFFFFFF80AD7A3703D0AA73F48240600000030400FEFFFFFF80AD7A3703D0AA73F409014217D2115051115480105406A0000003200101A000080002A5028000000C10002B5E8DC0F42B1CFD012E07A17AD46E2B8FCB81E85EB51B8AE3F2E07A17AD46E2B8FCB81E85EB51B8A
310
E3F02B5E8DC0F42B1CFC0AD7A3703D0AC73F419019018000000C1003FBFFFFFE02B5E8DC0F42A9CFD029018000000C1003FBFFFFFE02B5E8DC0F42A9CFD049018000000C1003FBFFFFFE02B5E8DC0F42A9CFD089018000000C1003FBFFFFFE02B5E8DC0F42A9CFD109018000000C1003FBFFFFFE02B5E8DC0F42A9CFD20901
310
8000000C1003FBFFFFFE02B5E8DC0F42A9CFD03409065F4441544100
340
23
340
0
340
0
340
0
340
0
340
0
340
0
340
23
340
0
340
0
340
0
340
0
340
0
340
0
340
23
340
0
340
0
340
0
340
0
340
0
340
0
 94
        0
  0
XRECORD
  5
B9
102
{ACAD_REACTORS
330
3C
102
}
330
3C
100
AcDbXrecord
280
     1
102
ACAD_ROUNDTRIP_PRE2007_TABLESTYLE
 90
      512
 91
        0
  1

 92
      512
 93
        0
  2

 94
      512
 95
        0
  3

  0
ENDSEC
  0
EOF
